  0
SECTION
  2
HEADER
  9
$ACADVER
  1
AC1015
  9
$ACADMAINTVER
 70
     6
  9
$DWGCODEPAGE
  3
ANSI_1254
  9
$INSBASE
 10
0.0
 20
0.0
 30
0.0
  9
$EXTMIN
 10
0.0
 20
0.0
 30
0.0
  9
$EXTMAX
 10
279.4
 20
215.9
 30
0.0
  9
$LIMMIN
 10
0.0
 20
0.0
  9
$LIMMAX
 10
279.4
 20
215.9
  9
$ORTHOMODE
 70
     0
  9
$REGENMODE
 70
     1
  9
$FILLMODE
 70
     1
  9
$QTEXTMODE
 70
     0
  9
$MIRRTEXT
 70
     1
  9
$LTSCALE
 40
1.0
  9
$ATTMODE
 70
     1
  9
$TEXTSIZE
 40
3.5
  9
$TRACEWID
 40
1.0
  9
$TEXTSTYLE
  7
Standard
  9
$CLAYER
  8
0
  9
$CELTYPE
  6
ByLayer
  9
$CECOLOR
 62
   256
  9
$CELTSCALE
 40
1.0
  9
$DISPSILH
 70
     0
  9
$DIMSCALE
 40
1.0
  9
$DIMASZ
 40
3.5
  9
$DIMEXO
 40
1.0
  9
$DIMDLI
 40
3.75
  9
$DIMRND
 40
0.0
  9
$DIMDLE
 40
0.0
  9
$DIMEXE
 40
1.0
  9
$DIMTP
 40
0.0
  9
$DIMTM
 40
0.0
  9
$DIMTXT
 40
3.5
  9
$DIMCEN
 40
2.5
  9
$DIMTSZ
 40
0.0
  9
$DIMTOL
 70
     0
  9
$DIMLIM
 70
     0
  9
$DIMTIH
 70
     1
  9
$DIMTOH
 70
     1
  9
$DIMSE1
 70
     0
  9
$DIMSE2
 70
     0
  9
$DIMTAD
 70
     1
  9
$DIMZIN
 70
     0
  9
$DIMBLK
  1

  9
$DIMASO
 70
     1
  9
$DIMSHO
 70
     1
  9
$DIMPOST
  1

  9
$DIMAPOST
  1

  9
$DIMALT
 70
     0
  9
$DIMALTD
 70
     3
  9
$DIMALTF
 40
0.0393700787
  9
$DIMLFAC
 40
1.0
  9
$DIMTOFL
 70
     1
  9
$DIMTVP
 40
0.0
  9
$DIMTIX
 70
     0
  9
$DIMSOXD
 70
     0
  9
$DIMSAH
 70
     0
  9
$DIMBLK1
  1

  9
$DIMBLK2
  1

  9
$DIMSTYLE
  2
ISO-25
  9
$DIMCLRD
 70
     0
  9
$DIMCLRE
 70
     0
  9
$DIMCLRT
 70
     0
  9
$DIMTFAC
 40
1.0
  9
$DIMGAP
 40
1.524
  9
$DIMJUST
 70
     0
  9
$DIMSD1
 70
     0
  9
$DIMSD2
 70
     0
  9
$DIMTOLJ
 70
     0
  9
$DIMTZIN
 70
     0
  9
$DIMALTZ
 70
     0
  9
$DIMALTTZ
 70
     0
  9
$DIMUPT
 70
     0
  9
$DIMDEC
 70
     2
  9
$DIMTDEC
 70
     2
  9
$DIMALTU
 70
     2
  9
$DIMALTTD
 70
     3
  9
$DIMTXSTY
  7
Standard
  9
$DIMAUNIT
 70
     0
  9
$DIMADEC
 70
     2
  9
$DIMALTRND
 40
0.0
  9
$DIMAZIN
 70
     0
  9
$DIMDSEP
 70
    44
  9
$DIMATFIT
 70
     3
  9
$DIMFRAC
 70
     0
  9
$DIMLDRBLK
  1

  9
$DIMLUNIT
 70
     2
  9
$DIMLWD
 70
    -2
  9
$DIMLWE
 70
    -2
  9
$DIMTMOVE
 70
     0
  9
$LUNITS
 70
     2
  9
$LUPREC
 70
     2
  9
$SKETCHINC
 40
1.0
  9
$FILLETRAD
 40
10.0
  9
$AUNITS
 70
     0
  9
$AUPREC
 70
     2
  9
$MENU
  1
.
  9
$ELEVATION
 40
0.0
  9
$PELEVATION
 40
0.0
  9
$THICKNESS
 40
0.0
  9
$LIMCHECK
 70
     0
  9
$CHAMFERA
 40
0.0
  9
$CHAMFERB
 40
0.0
  9
$CHAMFERC
 40
0.0
  9
$CHAMFERD
 40
0.0
  9
$SKPOLY
 70
     0
  9
$TDCREATE
 40
2459935.709472998
  9
$TDUCREATE
 40
2459935.584472998
  9
$TDUPDATE
 40
2459935.709473195
  9
$TDUUPDATE
 40
2459935.584473195
  9
$TDINDWG
 40
0.0000000116
  9
$TDUSRTIMER
 40
0.0000000116
  9
$USRTIMER
 70
     1
  9
$ANGBASE
 50
0.0
  9
$ANGDIR
 70
     0
  9
$PDMODE
 70
     0
  9
$PDSIZE
 40
-1.0
  9
$PLINEWID
 40
0.0
  9
$SPLFRAME
 70
     0
  9
$SPLINETYPE
 70
     6
  9
$SPLINESEGS
 70
     8
  9
$HANDSEED
  5
10E
  9
$SURFTAB1
 70
     6
  9
$SURFTAB2
 70
     6
  9
$SURFTYPE
 70
     6
  9
$SURFU
 70
     6
  9
$SURFV
 70
     6
  9
$UCSBASE
  2

  9
$UCSNAME
  2

  9
$UCSORG
 10
0.0
 20
0.0
 30
0.0
  9
$UCSXDIR
 10
1.0
 20
0.0
 30
0.0
  9
$UCSYDIR
 10
0.0
 20
1.0
 30
0.0
  9
$UCSORTHOREF
  2

  9
$UCSORTHOVIEW
 70
     0
  9
$UCSORGTOP
 10
0.0
 20
0.0
 30
0.0
  9
$UCSORGBOTTOM
 10
0.0
 20
0.0
 30
0.0
  9
$UCSORGLEFT
 10
0.0
 20
0.0
 30
0.0
  9
$UCSORGRIGHT
 10
0.0
 20
0.0
 30
0.0
  9
$UCSORGFRONT
 10
0.0
 20
0.0
 30
0.0
  9
$UCSORGBACK
 10
0.0
 20
0.0
 30
0.0
  9
$PUCSBASE
  2

  9
$PUCSNAME
  2

  9
$PUCSORG
 10
0.0
 20
0.0
 30
0.0
  9
$PUCSXDIR
 10
1.0
 20
0.0
 30
0.0
  9
$PUCSYDIR
 10
0.0
 20
1.0
 30
0.0
  9
$PUCSORTHOREF
  2

  9
$PUCSORTHOVIEW
 70
     0
  9
$PUCSORGTOP
 10
0.0
 20
0.0
 30
0.0
  9
$PUCSORGBOTTOM
 10
0.0
 20
0.0
 30
0.0
  9
$PUCSORGLEFT
 10
0.0
 20
0.0
 30
0.0
  9
$PUCSORGRIGHT
 10
0.0
 20
0.0
 30
0.0
  9
$PUCSORGFRONT
 10
0.0
 20
0.0
 30
0.0
  9
$PUCSORGBACK
 10
0.0
 20
0.0
 30
0.0
  9
$USERI1
 70
     0
  9
$USERI2
 70
     0
  9
$USERI3
 70
     0
  9
$USERI4
 70
     0
  9
$USERI5
 70
     0
  9
$USERR1
 40
0.0
  9
$USERR2
 40
0.0
  9
$USERR3
 40
0.0
  9
$USERR4
 40
0.0
  9
$USERR5
 40
0.0
  9
$WORLDVIEW
 70
     1
  9
$SHADEDGE
 70
     3
  9
$SHADEDIF
 70
    70
  9
$TILEMODE
 70
     1
  9
$MAXACTVP
 70
    64
  9
$PINSBASE
 10
0.0
 20
0.0
 30
0.0
  9
$PLIMCHECK
 70
     0
  9
$PEXTMIN
 10
1.0000000000E+20
 20
1.0000000000E+20
 30
1.0000000000E+20
  9
$PEXTMAX
 10
-1.0000000000E+20
 20
-1.0000000000E+20
 30
-1.0000000000E+20
  9
$PLIMMIN
 10
0.0
 20
0.0
  9
$PLIMMAX
 10
420.0
 20
297.0
  9
$UNITMODE
 70
     0
  9
$VISRETAIN
 70
     1
  9
$PLINEGEN
 70
     0
  9
$PSLTSCALE
 70
     1
  9
$TREEDEPTH
 70
  3020
  9
$CMLSTYLE
  2
Standard
  9
$CMLJUST
 70
     0
  9
$CMLSCALE
 40
20.0
  9
$PROXYGRAPHICS
 70
     1
  9
$MEASUREMENT
 70
     1
  9
$CELWEIGHT
370
    -1
  9
$ENDCAPS
280
     0
  9
$JOINSTYLE
280
     0
  9
$LWDISPLAY
290
     1
  9
$INSUNITS
 70
     4
  9
$HYPERLINKBASE
  1

  9
$STYLESHEET
  1

  9
$XEDIT
290
     1
  9
$CEPSNTYPE
380
     0
  9
$PSTYLEMODE
290
     1
  9
$FINGERPRINTGUID
  2
{ce83ad88-e114-4e49-8c78-e89a2c5fb074}
  9
$VERSIONGUID
  2
{FAEB1C32-E019-11D5-929B-00C0DF256EC4}
  9
$EXTNAMES
290
     1
  9
$PSVPSCALE
 40
0.0
  9
$OLESTARTUP
290
     0
  0
ENDSEC
  0
SECTION
  2
CLASSES
  0
CLASS
  1
ACDBDICTIONARYWDFLT
  2
AcDbDictionaryWithDefault
  3
ObjectDBX Classes
 90
        0
280
     0
281
     0
  0
CLASS
  1
VISUALSTYLE
  2
AcDbVisualStyle
  3
ObjectDBX Classes
 90
     4095
280
     0
281
     0
  0
CLASS
  1
MATERIAL
  2
AcDbMaterial
  3
ObjectDBX Classes
 90
     1153
280
     0
281
     0
  0
CLASS
  1
SCALE
  2
AcDbScale
  3
ObjectDBX Classes
 90
     1153
280
     0
281
     0
  0
CLASS
  1
TABLESTYLE
  2
AcDbTableStyle
  3
ObjectDBX Classes
 90
     4095
280
     0
281
     0
  0
CLASS
  1
MLEADERSTYLE
  2
AcDbMLeaderStyle
  3
ACDB_MLEADERSTYLE_CLASS
 90
     4095
280
     0
281
     0
  0
CLASS
  1
SUN
  2
AcDbSun
  3
SCENEOE
 90
     1153
280
     0
281
     0
  0
CLASS
  1
ACDBPLACEHOLDER
  2
AcDbPlaceHolder
  3
ObjectDBX Classes
 90
        0
280
     0
281
     0
  0
CLASS
  1
LAYOUT
  2
AcDbLayout
  3
ObjectDBX Classes
 90
        0
280
     0
281
     0
  0
ENDSEC
  0
SECTION
  2
TABLES
  0
TABLE
  2
VPORT
  5
8
330
0
100
AcDbSymbolTable
 70
     1
  0
VPORT
  5
29
330
8
100
AcDbSymbolTableRecord
100
AcDbViewportTableRecord
  2
*Active
 70
     0
 10
0.0
 20
0.0
 11
1.0
 21
1.0
 12
139.7
 22
107.95
 13
0.0
 23
0.0
 14
10.0
 24
10.0
 15
10.0
 25
10.0
 16
0.0
 26
0.0
 36
1.0
 17
0.0
 27
0.0
 37
0.0
 40
215.9
 41
1.2941176471
 42
50.0
 43
0.0
 44
0.0
 50
0.0
 51
0.0
 71
     0
 72
  2000
 73
     1
 74
     3
 75
     0
 76
     0
 77
     0
 78
     0
281
     0
 65
     1
110
0.0
120
0.0
130
0.0
111
1.0
121
0.0
131
0.0
112
0.0
122
1.0
132
0.0
 79
     0
146
0.0
  0
ENDTAB
  0
TABLE
  2
LTYPE
  5
5
330
0
100
AcDbSymbolTable
 70
     6
  0
LTYPE
  5
14
330
5
100
AcDbSymbolTableRecord
100
AcDbLinetypeTableRecord
  2
ByBlock
 70
     0
  3

 72
    65
 73
     0
 40
0.0
  0
LTYPE
  5
15
330
5
100
AcDbSymbolTableRecord
100
AcDbLinetypeTableRecord
  2
ByLayer
 70
     0
  3

 72
    65
 73
     0
 40
0.0
  0
LTYPE
  5
16
330
5
100
AcDbSymbolTableRecord
100
AcDbLinetypeTableRecord
  2
Continuous
 70
     0
  3
Solid line
 72
    65
 73
     0
 40
0.0
  0
LTYPE
  5
6E
330
5
100
AcDbSymbolTableRecord
100
AcDbLinetypeTableRecord
  2
HIDDEN
 70
     0
  3
Hidden __ __ __ __ __ __ __ __ __ __ __ __ __ __
 72
    65
 73
     2
 40
1.905
 49
1.27
 74
     0
 49
-0.635
 74
     0
  0
LTYPE
  5
6F
330
5
100
AcDbSymbolTableRecord
100
AcDbLinetypeTableRecord
  2
PHANTOM
 70
     0
  3
Phantom ______  __  __  ______  __  __  ______
 72
    65
 73
     6
 40
12.7
 49
6.35
 74
     0
 49
-1.27
 74
     0
 49
1.27
 74
     0
 49
-1.27
 74
     0
 49
1.27
 74
     0
 49
-1.27
 74
     0
  0
LTYPE
  5
70
330
5
100
AcDbSymbolTableRecord
100
AcDbLinetypeTableRecord
  2
CENTER
 70
     0
  3
Center ____ _ ____ _ ____ _ ____ _ ____ _ ____
 72
    65
 73
     4
 40
10.16
 49
6.35
 74
     0
 49
-1.27
 74
     0
 49
1.27
 74
     0
 49
-1.27
 74
     0
  0
LTYPE
  5
71
330
5
100
AcDbSymbolTableRecord
100
AcDbLinetypeTableRecord
  2
CENTERX2
 70
     0
  3
Center (2x) ________  __  ________  __  _____
 72
    65
 73
     4
 40
20.32
 49
12.7
 74
     0
 49
-2.54
 74
     0
 49
2.54
 74
     0
 49
-2.54
 74
     0
  0
LTYPE
  5
72
330
5
100
AcDbSymbolTableRecord
100
AcDbLinetypeTableRecord
  2
DOT2
 70
     0
  3
Dot (.5x) ........................................
 72
    65
 73
     2
 40
0.635
 49
0.0
 74
     0
 49
-0.635
 74
     0
  0
ENDTAB
  0
TABLE
  2
LAYER
  5
2
330
0
100
AcDbSymbolTable
 70
    17
  0
LAYER
  5
10
330
2
100
AcDbSymbolTableRecord
100
AcDbLayerTableRecord
  2
0
 70
     0
 62
     7
  6
Continuous
370
    -3
390
F
  0
LAYER
  5
73
330
2
100
AcDbSymbolTableRecord
100
AcDbLayerTableRecord
  2
FORMAT
 70
     0
 62
     7
  6
Continuous
370
    -3
390
F
  0
LAYER
  5
74
330
2
100
AcDbSymbolTableRecord
100
AcDbLayerTableRecord
  2
YARDIMCI_GEOMETRI
 70
     0
 62
    -6
  6
Continuous
290
     0
370
    -3
390
F
  0
LAYER
  5
75
330
2
100
AcDbSymbolTableRecord
100
AcDbLayerTableRecord
  2
SAYFA_CERCEVESI
 70
     0
 62
     7
  6
Continuous
370
    25
390
F
  0
LAYER
  5
76
330
2
100
AcDbSymbolTableRecord
100
AcDbLayerTableRecord
  2
ANTET
 70
     0
 62
     7
  6
Continuous
370
    -3
390
F
  0
LAYER
  5
77
330
2
100
AcDbSymbolTableRecord
100
AcDbLayerTableRecord
  2
OLCU
 70
     0
 62
   150
  6
Continuous
370
    -3
390
F
  0
LAYER
  5
78
330
2
100
AcDbSymbolTableRecord
100
AcDbLayerTableRecord
  2
METIN
 70
     0
 62
    96
  6
Continuous
370
    -3
390
F
  0
LAYER
  5
79
330
2
100
AcDbSymbolTableRecord
100
AcDbLayerTableRecord
  2
BALON
 70
     0
 62
     5
  6
Continuous
370
    -3
390
F
  0
LAYER
  5
7A
330
2
100
AcDbSymbolTableRecord
100
AcDbLayerTableRecord
  2
VURGU
 70
     0
 62
     7
  6
Continuous
370
    -3
390
F
  0
LAYER
  5
7B
330
2
100
AcDbSymbolTableRecord
100
AcDbLayerTableRecord
  2
SILIK
 70
     0
 62
     7
  6
Continuous
370
    -3
390
F
  0
LAYER
  5
7C
330
2
100
AcDbSymbolTableRecord
100
AcDbLayerTableRecord
  2
MODEL
 70
     0
 62
     7
  6
Continuous
370
    -3
390
F
  0
LAYER
  5
7D
330
2
100
AcDbSymbolTableRecord
100
AcDbLayerTableRecord
  2
DETAYLANDıRMA
 70
     0
 62
   190
  6
Continuous
370
    -3
390
F
  0
LAYER
  5
7E
330
2
100
AcDbSymbolTableRecord
100
AcDbLayerTableRecord
  2
TOLERANS
 70
     0
 62
   230
  6
Continuous
370
    -3
390
F
  0
LAYER
  5
7F
330
2
100
AcDbSymbolTableRecord
100
AcDbLayerTableRecord
  2
MERKEZ_CIZGILERI
 70
     0
 62
    30
  6
Continuous
370
    -3
390
F
  0
LAYER
  5
80
330
2
100
AcDbSymbolTableRecord
100
AcDbLayerTableRecord
  2
KESIT-DETAY_CIZGILERI
 70
     0
 62
     7
  6
Continuous
370
    -3
390
F
  0
LAYER
  5
81
330
2
100
AcDbSymbolTableRecord
100
AcDbLayerTableRecord
  2
\U+041E\U+0421\U+0415\U+0412\U+042B\U+0415
 70
     0
 62
     7
  6
Continuous
370
    -3
390
F
  0
LAYER
  5
82
330
2
100
AcDbSymbolTableRecord
100
AcDbLayerTableRecord
  2
\U+0412\U+041E\U+0414\U+042F\U+041D\U+042B\U+0415_\U+0417\U+041D\U+0410\U+041A\U+0418
 70
     0
 62
    11
  6
Continuous
370
    -3
390
F
  0
ENDTAB
  0
TABLE
  2
STYLE
  5
3
330
0
100
AcDbSymbolTable
 70
     1
  0
STYLE
  5
11
330
3
100
AcDbSymbolTableRecord
100
AcDbTextStyleTableRecord
  2
Standard
 70
     0
 40
0.0
 41
1.0
 50
0.0
 71
     0
 42
3.5
  3
txt
  4

  0
ENDTAB
  0
TABLE
  2
VIEW
  5
6
330
0
100
AcDbSymbolTable
 70
     0
  0
ENDTAB
  0
TABLE
  2
UCS
  5
7
330
0
100
AcDbSymbolTable
 70
     0
  0
ENDTAB
  0
TABLE
  2
APPID
  5
9
330
0
100
AcDbSymbolTable
 70
     1
  0
APPID
  5
12
330
9
100
AcDbSymbolTableRecord
100
AcDbRegAppTableRecord
  2
ACAD
 70
     0
  0
ENDTAB
  0
TABLE
  2
DIMSTYLE
  5
A
330
0
100
AcDbSymbolTable
 70
     1
100
AcDbDimStyleTable
  0
DIMSTYLE
105
27
330
A
100
AcDbSymbolTableRecord
100
AcDbDimStyleTableRecord
  2
ISO-25
 70
     0
 41
2.5
 42
0.625
 43
3.75
 44
1.25
 73
     0
 74
     0
 77
     1
 78
     8
140
2.5
141
2.5
143
0.0393700787
147
0.625
171
     3
172
     1
178
     0
271
     2
272
     2
274
     3
278
    44
283
     0
284
     8
340
11
  0
ENDTAB
  0
TABLE
  2
BLOCK_RECORD
  5
1
330
0
100
AcDbSymbolTable
 70
     2
  0
BLOCK_RECORD
  5
1F
330
1
100
AcDbSymbolTableRecord
100
AcDbBlockTableRecord
  2
*Model_Space
340
22
  0
BLOCK_RECORD
  5
1B
330
1
100
AcDbSymbolTableRecord
100
AcDbBlockTableRecord
  2
*Paper_Space
340
1E
  0
BLOCK_RECORD
  5
23
330
1
100
AcDbSymbolTableRecord
100
AcDbBlockTableRecord
  2
*Paper_Space0
340
26
  0
BLOCK_RECORD
  5
8E
330
1
100
AcDbSymbolTableRecord
100
AcDbBlockTableRecord
  2
SW_CENTERMARKSYMBOL_0
340
0
102
{BLKREFS
331
99
102
}
  0
ENDTAB
  0
ENDSEC
  0
SECTION
  2
BLOCKS
  0
BLOCK
  5
20
330
1F
100
AcDbEntity
  8
0
100
AcDbBlockBegin
  2
*Model_Space
 70
     0
 10
0.0
 20
0.0
 30
0.0
  3
*Model_Space
  1

  0
ENDBLK
  5
21
330
1F
100
AcDbEntity
  8
0
100
AcDbBlockEnd
  0
BLOCK
  5
1C
330
1B
100
AcDbEntity
 67
     1
  8
0
100
AcDbBlockBegin
  2
*Paper_Space
 70
     0
 10
0.0
 20
0.0
 30
0.0
  3
*Paper_Space
  1

  0
ENDBLK
  5
1D
330
1B
100
AcDbEntity
 67
     1
  8
0
100
AcDbBlockEnd
  0
BLOCK
  5
24
330
23
100
AcDbEntity
  8
0
100
AcDbBlockBegin
  2
*Paper_Space0
 70
     0
 10
0.0
 20
0.0
 30
0.0
  3
*Paper_Space0
  1

  0
ENDBLK
  5
25
330
23
100
AcDbEntity
  8
0
100
AcDbBlockEnd
  0
BLOCK
  5
8F
330
8E
100
AcDbEntity
  8
0
100
AcDbBlockBegin
  2
SW_CENTERMARKSYMBOL_0
 70
     0
 10
0.0
 20
0.0
 30
0.0
  3
SW_CENTERMARKSYMBOL_0
  1

  0
LINE
  5
91
330
8E
100
AcDbEntity
  8
FORMAT
 62
     0
100
AcDbLine
 10
0.0
 20
0.0
 30
0.0
 11
0.0
 21
2.5
 31
0.0
  0
LINE
  5
92
330
8E
100
AcDbEntity
  8
FORMAT
 62
     0
100
AcDbLine
 10
0.0
 20
0.0
 30
0.0
 11
-2.5
 21
0.0
 31
0.0
  0
LINE
  5
93
330
8E
100
AcDbEntity
  8
FORMAT
 62
     0
100
AcDbLine
 10
0.0
 20
0.0
 30
0.0
 11
0.0
 21
-2.5
 31
0.0
  0
LINE
  5
94
330
8E
100
AcDbEntity
  8
FORMAT
 62
     0
100
AcDbLine
 10
0.0
 20
0.0
 30
0.0
 11
2.5
 21
0.0
 31
0.0
  0
LINE
  5
95
330
8E
100
AcDbEntity
  8
FORMAT
 62
     0
100
AcDbLine
 10
0.0
 20
5.0
 30
0.0
 11
0.0
 21
15.0
 31
0.0
  0
LINE
  5
96
330
8E
100
AcDbEntity
  8
FORMAT
 62
     0
100
AcDbLine
 10
-5.0
 20
0.0
 30
0.0
 11
-15.0
 21
0.0
 31
0.0
  0
LINE
  5
97
330
8E
100
AcDbEntity
  8
FORMAT
 62
     0
100
AcDbLine
 10
0.0
 20
-5.0
 30
0.0
 11
0.0
 21
-15.0
 31
0.0
  0
LINE
  5
98
330
8E
100
AcDbEntity
  8
FORMAT
 62
     0
100
AcDbLine
 10
5.0
 20
0.0
 30
0.0
 11
15.0
 21
0.0
 31
0.0
  0
ENDBLK
  5
90
330
8E
100
AcDbEntity
  8
0
100
AcDbBlockEnd
  0
ENDSEC
  0
SECTION
  2
ENTITIES
  0
CIRCLE
  5
83
330
1F
100
AcDbEntity
  8
0
  6
Continuous
 62
     7
370
    25
100
AcDbCircle
 10
139.8323425481
 20
108.7440552885
 30
0.0
 40
9.500000000000028
  0
CIRCLE
  5
84
330
1F
100
AcDbEntity
  8
0
  6
Continuous
 62
     7
370
    25
100
AcDbCircle
 10
139.8323425481
 20
108.7440552885
 30
0.0
 40
12.50000000000001
  0
CIRCLE
  5
85
330
1F
100
AcDbEntity
  8
0
  6
Continuous
 62
     7
370
    25
100
AcDbCircle
 10
139.8323425481
 20
108.7440552885
 30
0.0
 40
8.000000000000028
  0
CIRCLE
  5
86
330
1F
100
AcDbEntity
  8
0
  6
Continuous
 62
     7
370
    25
100
AcDbCircle
 10
139.8323425481
 20
108.7440552885
 30
0.0
 40
15.00000000000001
  0
CIRCLE
  5
87
330
1F
100
AcDbEntity
  8
0
  6
Continuous
 62
     7
370
    25
100
AcDbCircle
 10
139.8323425481
 20
108.7440552885
 30
0.0
 40
15.50000000000003
  0
LINE
  5
88
330
1F
100
AcDbEntity
  8
0
  6
Continuous
 62
     7
370
    25
100
AcDbLine
 10
156.8323425481
 20
98.9291007122
 30
0.0
 11
156.8323425481
 21
118.5590098647
 31
0.0
  0
LINE
  5
89
330
1F
100
AcDbEntity
  8
0
  6
Continuous
 62
     7
370
    25
100
AcDbLine
 10
139.8323425481
 20
89.114146136
 30
0.0
 11
156.8323425481
 21
98.9291007122
 31
0.0
  0
LINE
  5
8A
330
1F
100
AcDbEntity
  8
0
  6
Continuous
 62
     7
370
    25
100
AcDbLine
 10
122.8323425481
 20
118.5590098647
 30
0.0
 11
122.8323425481
 21
98.9291007122
 31
0.0
  0
LINE
  5
8B
330
1F
100
AcDbEntity
  8
0
  6
Continuous
 62
     7
370
    25
100
AcDbLine
 10
156.8323425481
 20
118.5590098647
 30
0.0
 11
139.8323425481
 21
128.3739644409
 31
0.0
  0
LINE
  5
8C
330
1F
100
AcDbEntity
  8
0
  6
Continuous
 62
     7
370
    25
100
AcDbLine
 10
139.8323425481
 20
128.3739644409
 30
0.0
 11
122.8323425481
 21
118.5590098647
 31
0.0
  0
LINE
  5
8D
330
1F
100
AcDbEntity
  8
0
  6
Continuous
 62
     7
370
    25
100
AcDbLine
 10
122.8323425481
 20
98.9291007122
 30
0.0
 11
139.8323425481
 21
89.114146136
 31
0.0
  0
INSERT
  5
99
330
1F
100
AcDbEntity
  8
FORMAT
 62
     7
100
AcDbBlockReference
  2
SW_CENTERMARKSYMBOL_0
 10
139.8323425481
 20
108.7440552885
 30
0.0
  0
LINE
  5
9A
330
1F
100
AcDbEntity
  8
0
  6
Continuous
 62
     7
370
    25
100
AcDbLine
 10
155.5823425481
 20
131.3769976914
 30
0.0
 11
155.5823425481
 21
142.3769976914
 31
0.0
  0
LINE
  5
9B
330
1F
100
AcDbEntity
  8
0
  6
Continuous
 62
     7
370
    25
100
AcDbLine
 10
124.0823425481
 20
142.3769976914
 30
0.0
 11
124.0823425481
 21
131.3769976914
 31
0.0
  0
LINE
  5
9C
330
1F
100
AcDbEntity
  8
0
  6
Continuous
 62
     7
370
    25
100
AcDbLine
 10
155.3323425481
 20
149.3769976914
 30
0.0
 11
155.3323425481
 21
166.8769976914
 31
0.0
  0
LINE
  5
9D
330
1F
100
AcDbEntity
  8
0
  6
Continuous
 62
     7
370
    25
100
AcDbLine
 10
124.3323425481
 20
166.8769976914
 30
0.0
 11
124.3323425481
 21
149.3769976914
 31
0.0
  0
ARC
  5
9E
330
1F
100
AcDbEntity
  8
0
  6
Continuous
 62
     7
370
    25
100
AcDbCircle
 10
154.8323425481
 20
166.8769976914
 30
0.0
 40
0.5
100
AcDbArc
 50
0.0
 51
90.0
  0
ARC
  5
9F
330
1F
100
AcDbEntity
  8
0
  6
Continuous
 62
     7
370
    25
100
AcDbCircle
 10
124.8323425481
 20
166.8769976914
 30
0.0
 40
0.5000000000000142
100
AcDbArc
 50
90.0
 51
180.0
  0
LINE
  5
A0
330
1F
100
AcDbEntity
  8
0
  6
Continuous
 62
     7
370
    25
100
AcDbLine
 10
152.3323425481
 20
167.3769976914
 30
0.0
 11
152.3323425481
 21
211.3769976914
 31
0.0
  0
LINE
  5
A1
330
1F
100
AcDbEntity
  8
0
  6
Continuous
 62
     7
370
    25
100
AcDbLine
 10
127.3323425481
 20
211.3769976914
 30
0.0
 11
127.3323425481
 21
167.3769976914
 31
0.0
  0
LINE
  5
A2
330
1F
100
AcDbEntity
  8
0
  6
Continuous
 62
     7
370
    25
100
AcDbLine
 10
139.8323425481
 20
149.3769976914
 30
0.0
 11
139.8323425481
 21
142.3769976914
 31
0.0
  0
LINE
  5
A3
330
1F
100
AcDbEntity
  8
0
  6
Continuous
 62
     7
370
    25
100
AcDbLine
 10
139.8323425481
 20
149.3769976914
 30
0.0
 11
156.8323425481
 21
149.3769976914
 31
0.0
  0
LINE
  5
A4
330
1F
100
AcDbEntity
  8
0
  6
Continuous
 62
     7
370
    25
100
AcDbLine
 10
156.8323425481
 20
149.3769976914
 30
0.0
 11
156.8323425481
 21
142.3769976914
 31
0.0
  0
LINE
  5
A5
330
1F
100
AcDbEntity
  8
0
  6
Continuous
 62
     7
370
    25
100
AcDbLine
 10
139.8323425481
 20
142.3769976914
 30
0.0
 11
156.8323425481
 21
142.3769976914
 31
0.0
  0
LINE
  5
A6
330
1F
100
AcDbEntity
  8
0
  6
Continuous
 62
     7
370
    25
100
AcDbLine
 10
122.8323425481
 20
149.3769976914
 30
0.0
 11
122.8323425481
 21
142.3769976914
 31
0.0
  0
LINE
  5
A7
330
1F
100
AcDbEntity
  8
0
  6
Continuous
 62
     7
370
    25
100
AcDbLine
 10
122.8323425481
 20
149.3769976914
 30
0.0
 11
139.8323425481
 21
149.3769976914
 31
0.0
  0
LINE
  5
A8
330
1F
100
AcDbEntity
  8
0
  6
Continuous
 62
     7
370
    25
100
AcDbLine
 10
122.8323425481
 20
142.3769976914
 30
0.0
 11
139.8323425481
 21
142.3769976914
 31
0.0
  0
LINE
  5
A9
330
1F
100
AcDbEntity
  8
0
  6
Continuous
 62
     7
370
    25
100
AcDbLine
 10
155.5823425481
 20
131.3769976914
 30
0.0
 11
124.0823425481
 21
131.3769976914
 31
0.0
  0
LINE
  5
AA
330
1F
100
AcDbEntity
  8
0
  6
Continuous
 62
     7
370
    25
100
AcDbLine
 10
154.8323425458
 20
167.3769976914
 30
0.0
 11
124.8323425481
 21
167.3769976914
 31
0.0
  0
LINE
  5
AB
330
1F
100
AcDbEntity
  8
0
  6
Continuous
 62
     7
370
    25
100
AcDbLine
 10
152.3323425481
 20
211.3769976914
 30
0.0
 11
127.3323425481
 21
211.3769976914
 31
0.0
  0
LINE
  5
AC
330
1F
100
AcDbEntity
  8
0
  6
Continuous
 62
     1
370
    25
100
AcDbLine
 10
155.3323425481
 20
166.8769976914
 30
0.0
 11
124.3323425481
 21
166.8769976914
 31
0.0
  0
LINE
  5
AD
330
1F
100
AcDbEntity
  8
0
  6
Continuous
 62
     7
370
    25
100
AcDbLine
 10
179.2264968168
 20
92.9940552885
 30
0.0
 11
190.2264968168
 21
92.9940552885
 31
0.0
  0
LINE
  5
AE
330
1F
100
AcDbEntity
  8
0
  6
Continuous
 62
     7
370
    25
100
AcDbLine
 10
190.2264968168
 20
124.4940552885
 30
0.0
 11
179.2264968168
 21
124.4940552885
 31
0.0
  0
LINE
  5
AF
330
1F
100
AcDbEntity
  8
0
  6
Continuous
 62
     7
370
    25
100
AcDbLine
 10
197.2264968168
 20
93.2440552885
 30
0.0
 11
214.7264968168
 21
93.2440552885
 31
0.0
  0
LINE
  5
B0
330
1F
100
AcDbEntity
  8
0
  6
Continuous
 62
     7
370
    25
100
AcDbLine
 10
214.7264968168
 20
124.2440552885
 30
0.0
 11
197.2264968168
 21
124.2440552885
 31
0.0
  0
ARC
  5
B1
330
1F
100
AcDbEntity
  8
0
  6
Continuous
 62
     7
370
    25
100
AcDbCircle
 10
214.7264968168
 20
93.7440552885
 30
0.0
 40
0.5
100
AcDbArc
 50
270.0
 51
0.0
  0
ARC
  5
B2
330
1F
100
AcDbEntity
  8
0
  6
Continuous
 62
     7
370
    25
100
AcDbCircle
 10
214.7264968168
 20
123.7440552885
 30
0.0
 40
0.5
100
AcDbArc
 50
0.0
 51
90.0
  0
LINE
  5
B3
330
1F
100
AcDbEntity
  8
0
  6
Continuous
 62
     7
370
    25
100
AcDbLine
 10
215.2264968168
 20
96.2440552885
 30
0.0
 11
259.2264968168
 21
96.2440552885
 31
0.0
  0
LINE
  5
B4
330
1F
100
AcDbEntity
  8
0
  6
Continuous
 62
     7
370
    25
100
AcDbLine
 10
259.2264968168
 20
121.2440552885
 30
0.0
 11
215.2264968168
 21
121.2440552885
 31
0.0
  0
LINE
  5
B5
330
1F
100
AcDbEntity
  8
0
  6
Continuous
 62
     7
370
    25
100
AcDbLine
 10
197.2264968168
 20
118.5590098647
 30
0.0
 11
190.2264968168
 21
118.5590098647
 31
0.0
  0
LINE
  5
B6
330
1F
100
AcDbEntity
  8
0
  6
Continuous
 62
     7
370
    25
100
AcDbLine
 10
197.2264968168
 20
118.5590098647
 30
0.0
 11
197.2264968168
 21
98.9291007122
 31
0.0
  0
LINE
  5
B7
330
1F
100
AcDbEntity
  8
0
  6
Continuous
 62
     7
370
    25
100
AcDbLine
 10
197.2264968168
 20
98.9291007122
 30
0.0
 11
190.2264968168
 21
98.9291007122
 31
0.0
  0
LINE
  5
B8
330
1F
100
AcDbEntity
  8
0
  6
Continuous
 62
     7
370
    25
100
AcDbLine
 10
190.2264968168
 20
118.5590098647
 30
0.0
 11
190.2264968168
 21
98.9291007122
 31
0.0
  0
LINE
  5
B9
330
1F
100
AcDbEntity
  8
0
  6
Continuous
 62
     7
370
    25
100
AcDbLine
 10
197.2264968168
 20
98.9291007122
 30
0.0
 11
197.2264968168
 21
89.114146136
 31
0.0
  0
LINE
  5
BA
330
1F
100
AcDbEntity
  8
0
  6
Continuous
 62
     7
370
    25
100
AcDbLine
 10
197.2264968168
 20
89.114146136
 30
0.0
 11
190.2264968168
 21
89.114146136
 31
0.0
  0
LINE
  5
BB
330
1F
100
AcDbEntity
  8
0
  6
Continuous
 62
     7
370
    25
100
AcDbLine
 10
190.2264968168
 20
98.9291007122
 30
0.0
 11
190.2264968168
 21
89.114146136
 31
0.0
  0
LINE
  5
BC
330
1F
100
AcDbEntity
  8
0
  6
Continuous
 62
     7
370
    25
100
AcDbLine
 10
197.2264968168
 20
128.3739644409
 30
0.0
 11
190.2264968168
 21
128.3739644409
 31
0.0
  0
LINE
  5
BD
330
1F
100
AcDbEntity
  8
0
  6
Continuous
 62
     7
370
    25
100
AcDbLine
 10
197.2264968168
 20
128.3739644409
 30
0.0
 11
197.2264968168
 21
118.5590098647
 31
0.0
  0
LINE
  5
BE
330
1F
100
AcDbEntity
  8
0
  6
Continuous
 62
     7
370
    25
100
AcDbLine
 10
190.2264968168
 20
128.3739644409
 30
0.0
 11
190.2264968168
 21
118.5590098647
 31
0.0
  0
LINE
  5
BF
330
1F
100
AcDbEntity
  8
0
  6
Continuous
 62
     7
370
    25
100
AcDbLine
 10
179.2264968168
 20
108.7440552885
 30
0.0
 11
179.2264968168
 21
124.4940552885
 31
0.0
  0
LINE
  5
C0
330
1F
100
AcDbEntity
  8
0
  6
Continuous
 62
     7
370
    25
100
AcDbLine
 10
179.2264968168
 20
92.9940552885
 30
0.0
 11
179.2264968168
 21
108.7440552885
 31
0.0
  0
LINE
  5
C1
330
1F
100
AcDbEntity
  8
0
  6
Continuous
 62
     7
370
    25
100
AcDbLine
 10
215.2264968168
 20
108.7440552885
 30
0.0
 11
215.2264968168
 21
123.7440552885
 31
0.0
  0
LINE
  5
C2
330
1F
100
AcDbEntity
  8
0
  6
Continuous
 62
     7
370
    25
100
AcDbLine
 10
215.2264968168
 20
93.7440552885
 30
0.0
 11
215.2264968168
 21
108.7440552885
 31
0.0
  0
LINE
  5
C3
330
1F
100
AcDbEntity
  8
0
  6
Continuous
 62
     7
370
    25
100
AcDbLine
 10
259.2264968168
 20
108.7440552885
 30
0.0
 11
259.2264968168
 21
121.2440552885
 31
0.0
  0
LINE
  5
C4
330
1F
100
AcDbEntity
  8
0
  6
Continuous
 62
     7
370
    25
100
AcDbLine
 10
259.2264968168
 20
96.2440552885
 30
0.0
 11
259.2264968168
 21
108.7440552885
 31
0.0
  0
LINE
  5
C5
330
1F
100
AcDbEntity
  8
0
  6
Continuous
 62
     1
370
    25
100
AcDbLine
 10
214.7264968168
 20
108.7440552885
 30
0.0
 11
214.7264968168
 21
124.2440552885
 31
0.0
  0
LINE
  5
C6
330
1F
100
AcDbEntity
  8
0
  6
Continuous
 62
     1
370
    25
100
AcDbLine
 10
214.7264968168
 20
93.2440552885
 30
0.0
 11
214.7264968168
 21
108.7440552885
 31
0.0
  0
LINE
  5
C7
330
1F
100
AcDbEntity
  8
0
  6
Continuous
 62
     7
370
    25
100
AcDbLine
 10
99.846783134
 20
124.4940552885
 30
0.0
 11
88.846783134
 21
124.4940552885
 31
0.0
  0
LINE
  5
C8
330
1F
100
AcDbEntity
  8
0
  6
Continuous
 62
     7
370
    25
100
AcDbLine
 10
88.846783134
 20
92.9940552885
 30
0.0
 11
99.846783134
 21
92.9940552885
 31
0.0
  0
LINE
  5
C9
330
1F
100
AcDbEntity
  8
0
  6
Continuous
 62
     7
370
    25
100
AcDbLine
 10
81.846783134
 20
124.2440552885
 30
0.0
 11
64.346783134
 21
124.2440552885
 31
0.0
  0
LINE
  5
CA
330
1F
100
AcDbEntity
  8
0
  6
Continuous
 62
     7
370
    25
100
AcDbLine
 10
64.346783134
 20
93.2440552885
 30
0.0
 11
81.846783134
 21
93.2440552885
 31
0.0
  0
ARC
  5
CB
330
1F
100
AcDbEntity
  8
0
  6
Continuous
 62
     7
370
    25
100
AcDbCircle
 10
64.346783134
 20
123.7440552885
 30
0.0
 40
0.5
100
AcDbArc
 50
90.0
 51
180.0
  0
ARC
  5
CC
330
1F
100
AcDbEntity
  8
0
  6
Continuous
 62
     7
370
    25
100
AcDbCircle
 10
64.346783134
 20
93.7440552885
 30
0.0
 40
0.5
100
AcDbArc
 50
180.0
 51
270.0
  0
LINE
  5
CD
330
1F
100
AcDbEntity
  8
0
  6
Continuous
 62
     7
370
    25
100
AcDbLine
 10
63.846783134
 20
121.2440552885
 30
0.0
 11
19.846783134
 21
121.2440552885
 31
0.0
  0
LINE
  5
CE
330
1F
100
AcDbEntity
  8
0
  6
Continuous
 62
     7
370
    25
100
AcDbLine
 10
19.846783134
 20
96.2440552885
 30
0.0
 11
63.846783134
 21
96.2440552885
 31
0.0
  0
LINE
  5
CF
330
1F
100
AcDbEntity
  8
0
  6
Continuous
 62
     7
370
    25
100
AcDbLine
 10
81.846783134
 20
89.114146136
 30
0.0
 11
88.846783134
 21
89.114146136
 31
0.0
  0
LINE
  5
D0
330
1F
100
AcDbEntity
  8
0
  6
Continuous
 62
     7
370
    25
100
AcDbLine
 10
81.846783134
 20
89.114146136
 30
0.0
 11
81.846783134
 21
98.9291007122
 31
0.0
  0
LINE
  5
D1
330
1F
100
AcDbEntity
  8
0
  6
Continuous
 62
     7
370
    25
100
AcDbLine
 10
81.846783134
 20
98.9291007122
 30
0.0
 11
88.846783134
 21
98.9291007122
 31
0.0
  0
LINE
  5
D2
330
1F
100
AcDbEntity
  8
0
  6
Continuous
 62
     7
370
    25
100
AcDbLine
 10
88.846783134
 20
89.114146136
 30
0.0
 11
88.846783134
 21
98.9291007122
 31
0.0
  0
LINE
  5
D3
330
1F
100
AcDbEntity
  8
0
  6
Continuous
 62
     7
370
    25
100
AcDbLine
 10
81.846783134
 20
98.9291007122
 30
0.0
 11
81.846783134
 21
118.5590098647
 31
0.0
  0
LINE
  5
D4
330
1F
100
AcDbEntity
  8
0
  6
Continuous
 62
     7
370
    25
100
AcDbLine
 10
81.846783134
 20
118.5590098647
 30
0.0
 11
88.846783134
 21
118.5590098647
 31
0.0
  0
LINE
  5
D5
330
1F
100
AcDbEntity
  8
0
  6
Continuous
 62
     7
370
    25
100
AcDbLine
 10
88.846783134
 20
98.9291007122
 30
0.0
 11
88.846783134
 21
118.5590098647
 31
0.0
  0
LINE
  5
D6
330
1F
100
AcDbEntity
  8
0
  6
Continuous
 62
     7
370
    25
100
AcDbLine
 10
81.846783134
 20
118.5590098647
 30
0.0
 11
81.846783134
 21
128.3739644409
 31
0.0
  0
LINE
  5
D7
330
1F
100
AcDbEntity
  8
0
  6
Continuous
 62
     7
370
    25
100
AcDbLine
 10
81.846783134
 20
128.3739644409
 30
0.0
 11
88.846783134
 21
128.3739644409
 31
0.0
  0
LINE
  5
D8
330
1F
100
AcDbEntity
  8
0
  6
Continuous
 62
     7
370
    25
100
AcDbLine
 10
88.846783134
 20
118.5590098647
 30
0.0
 11
88.846783134
 21
128.3739644409
 31
0.0
  0
LINE
  5
D9
330
1F
100
AcDbEntity
  8
0
  6
Continuous
 62
     7
370
    25
100
AcDbLine
 10
99.846783134
 20
124.4940552885
 30
0.0
 11
99.846783134
 21
92.9940552885
 31
0.0
  0
LINE
  5
DA
330
1F
100
AcDbEntity
  8
0
  6
Continuous
 62
     7
370
    25
100
AcDbLine
 10
63.846783134
 20
123.7440552885
 30
0.0
 11
63.846783134
 21
93.7440552885
 31
0.0
  0
LINE
  5
DB
330
1F
100
AcDbEntity
  8
0
  6
Continuous
 62
     7
370
    25
100
AcDbLine
 10
19.846783134
 20
121.2440552885
 30
0.0
 11
19.846783134
 21
96.2440552885
 31
0.0
  0
LINE
  5
DC
330
1F
100
AcDbEntity
  8
0
  6
Continuous
 62
     1
370
    25
100
AcDbLine
 10
64.346783134
 20
124.2440552885
 30
0.0
 11
64.346783134
 21
93.2440552885
 31
0.0
  0
LINE
  5
DD
330
1F
100
AcDbEntity
  8
0
  6
Continuous
 62
     7
370
    25
100
AcDbLine
 10
228.80287926
 20
49.7624949518
 30
0.0
 11
197.6901808878
 21
67.7234734119
 31
0.0
  0
LINE
  5
DE
330
1F
100
AcDbEntity
  8
0
  6
Continuous
 62
     7
370
    25
100
AcDbLine
 10
185.1911967298
 20
46.0722518524
 30
0.0
 11
216.303895102
 21
28.1112733923
 31
0.0
  0
SPLINE
  5
DF
330
1F
100
AcDbEntity
  8
0
  6
Continuous
 62
     7
370
    25
100
AcDbSpline
210
0.0
220
0.0
230
1.0
 70
     8
 71
     3
 72
    17
 73
    13
 74
     0
 42
0.00000001
 43
0.00000001
 40
0.0
 40
0.0
 40
0.0
 40
0.0
 40
0.0479985937266306
 40
0.1603214867285952
 40
0.2729805132152119
 40
0.38612149954697
 40
0.4998205289861505
 40
0.6140840103760999
 40
0.7288618384094907
 40
0.8440679115947795
 40
0.9596013673030078
 40
1.0
 40
1.0
 40
1.0
 40
1.0
 10
229.897530785154
 20
52.51285312700244
 30
0.0
 10
229.8222974424891
 20
52.54401846798546
 30
0.0
 10
229.5710083856411
 20
52.64811472191445
 30
0.0
 10
229.1168938087842
 20
52.76947214764765
 30
0.0
 10
228.5385519825891
 20
52.87778596023582
 30
0.0
 10
227.9373480828331
 20
52.9292103095836
 30
0.0
 10
227.3171867663293
 20
52.92744305136357
 30
0.0
 10
226.6797111526184
 20
52.87085519627782
 30
0.0
 10
226.0275882867228
 20
52.76090703245306
 30
0.0
 10
225.3630365523136
 20
52.59338923123278
 30
0.0
 10
224.8365175369283
 20
52.43069887869542
 30
0.0
 10
224.5309043253043
 20
52.3065311250782
 30
0.0
 10
224.451726549838
 20
52.27436194474788
 30
0.0
  0
SPLINE
  5
E0
330
1F
100
AcDbEntity
  8
0
  6
Continuous
 62
     7
370
    25
100
AcDbSpline
210
0.0
220
0.0
230
1.0
 70
     8
 71
     3
 72
    16
 73
    12
 74
     0
 42
0.00000001
 43
0.00000001
 40
0.0
 40
0.0
 40
0.0
 40
0.0
 40
0.1067049771279347
 40
0.223819673884448
 40
0.3407542713492017
 40
0.4574076937545485
 40
0.5736686212794292
 40
0.689430484245212
 40
0.8046130875470768
 40
0.9191866476960734
 40
1.0
 40
1.0
 40
1.0
 40
1.0
 10
211.9489870640434
 20
30.62530828984995
 30
0.0
 10
211.985774072487
 20
30.4079219521081
 30
0.0
 10
212.0629368858314
 20
29.951941916969
 30
0.0
 10
212.2331541577581
 20
29.29685784341738
 30
0.0
 10
212.4468845318528
 20
28.65467272795075
 30
0.0
 10
212.7028831505139
 20
28.05174888612172
 30
0.0
 10
212.9988794494831
 20
27.49005054240666
 30
0.0
 10
213.3333839676677
 20
26.97172047977278
 30
0.0
 10
213.7061684802695
 20
26.5011903760119
 30
0.0
 10
214.0705878887576
 20
26.11342191434925
 30
0.0
 10
214.3252023697336
 20
25.90452641141525
 30
0.0
 10
214.4305126461205
 20
25.8181258144593
 30
0.0
  0
LINE
  5
E1
330
1F
100
AcDbEntity
  8
0
  6
Continuous
 62
     7
370
    25
100
AcDbLine
 10
243.0306794203
 20
45.0129685325
 30
0.0
 11
230.6563107495
 21
52.156539511
 31
0.0
  0
LINE
  5
E2
330
1F
100
AcDbEntity
  8
0
  6
Continuous
 62
     7
370
    25
100
AcDbLine
 10
215.1575703937
 20
25.3090247772
 30
0.0
 11
227.5319390644
 21
18.1654537987
 31
0.0
  0
LINE
  5
E3
330
1F
100
AcDbEntity
  8
0
  6
Continuous
 62
     7
370
    25
100
AcDbLine
 10
255.8835913232
 20
37.8818077417
 30
0.0
 11
252.2518719908
 21
39.978354686
 31
0.0
  0
LINE
  5
E4
330
1F
100
AcDbEntity
  8
0
  6
Continuous
 62
     7
370
    25
100
AcDbLine
 10
235.8089622639
 20
13.0985626978
 30
0.0
 11
240.1348712842
 21
10.6012685767
 31
0.0
  0
LWPOLYLINE
  5
E5
330
1F
100
AcDbEntity
  8
0
  6
Continuous
 62
     7
370
    25
100
AcDbPolyline
 90
       88
 70
   128
 43
0.0
 10
182.601854044
 20
51.7953119332
 10
182.6248948399
 20
52.5451100079
 10
182.6938971035
 20
53.3176013192
 10
182.8085010889
 20
54.1087584553
 10
182.9681093042
 20
54.9144566891
 10
183.1718896259
 20
55.730495483
 10
183.4187796377
 20
56.5526203888
 10
183.7074921696
 20
57.3765452278
 10
184.0365220079
 20
58.1979744373
 10
184.4041537436
 20
59.0126254659
 10
184.8084707149
 20
59.8162511003
 10
185.2473650005
 20
60.6046616085
 10
185.7185484086
 20
61.3737465833
 10
186.2195644072
 20
62.1194963716
 10
186.7478009309
 20
62.8380229794
 10
187.300503999
 20
63.5255803417
 10
187.8747920737
 20
64.1785838527
 10
188.4676710827
 20
64.7936290545
 10
189.0760500296
 20
65.3675093862
 10
189.6967571082
 20
65.8972329014
 10
190.3265562392
 20
66.3800378672
 10
190.9621639415
 20
66.8134071618
 10
191.6002664509
 20
67.1950813985
 10
192.2375369963
 20
67.5230707045
 10
192.8706531443
 20
67.7956650955
 10
193.4963141203
 20
68.0114433905
 10
194.1112580178
 20
68.1692806215
 10
194.712278804
 20
68.2683538981
 10
195.2962430349
 20
68.3081466982
 10
195.8601061912
 20
68.2884515606
 10
196.4009285517
 20
68.2093711665
 10
196.9158905189
 20
68.0713178045
 10
197.4023073197
 20
67.8750112211
 10
197.8576430019
 20
67.6214748676
 10
198.2795236563
 20
67.3120305654
 10
198.6657497924
 20
66.9482916138
 10
199.014307806
 20
66.5321543791
 10
199.323380477
 20
66.0657884083
 10
199.5913564436
 20
65.5516251175
 10
199.8168386033
 20
64.9923451162
 10
199.9986513963
 20
64.3908642312
 10
200.1358469351
 20
63.7503183055
 10
200.2277099455
 20
63.0740468487
 10
200.2737614965
 20
62.3655756273
 10
200.2737614965
 20
61.6285982821
 10
200.2277099455
 20
60.8669570716
 10
200.1358469351
 20
60.0846228406
 10
199.9986513963
 20
59.2856743175
 10
199.8168386033
 20
58.4742768499
 10
199.5913564436
 20
57.6546606884
 10
199.323380477
 20
56.8310989324
 10
199.014307806
 20
56.0078852513
 10
198.6657497924
 20
55.1893115003
 10
198.2795236563
 20
54.3796453437
 10
197.8576430019
 20
53.583108006
 10
197.4023073197
 20
52.8038522641
 10
196.9158905189
 20
52.0459407966
 10
196.4009285517
 20
51.3133250029
 10
195.8601061912
 20
50.6098244026
 10
195.2962430349
 20
49.939106722
 10
194.712278804
 20
49.3046687725
 10
194.1112580178
 20
48.70981822
 10
193.4963141203
 20
48.1576563396
 10
192.8706531443
 20
47.6510618479
 10
192.2375369963
 20
47.1926758938
 10
191.6002664509
 20
46.7848882895
 10
190.9621639415
 20
46.4298250508
 10
190.3265562392
 20
46.1293373129
 10
189.6967571082
 20
45.8849916798
 10
189.0760500296
 20
45.6980620566
 10
188.4676710827
 20
45.5695230076
 10
187.8747920737
 20
45.500044676
 10
187.300503999
 20
45.4899892896
 10
186.7478009309
 20
45.5394092726
 10
186.2195644072
 20
45.648046972
 10
185.7185484086
 20
45.8153360012
 10
185.2473650005
 20
46.0404041927
 10
184.8084707149
 20
46.322078145
 10
184.4041537436
 20
46.6588893407
 10
184.0365220079
 20
47.0490818022
 10
183.7074921696
 20
47.4906212465
 10
183.4187796377
 20
47.9812056915
 10
183.1718896259
 20
48.5182774571
 10
182.9681093042
 20
49.0990364998
 10
182.8085010889
 20
49.7204550108
 10
182.6938971035
 20
50.3792932017
 10
182.6248948399
 20
51.0721161952
 10
182.601854044
 20
51.7953119332
  0
LWPOLYLINE
  5
E6
330
1F
100
AcDbEntity
  8
0
  6
Continuous
 62
     7
370
    25
100
AcDbPolyline
 90
       46
 70
   128
 43
0.0
 10
228.80287926
 20
49.7624949518
 10
228.9703413741
 20
49.6604964075
 10
229.3922220285
 20
49.3510521053
 10
229.7784481646
 20
48.9873131537
 10
230.1270061782
 20
48.571175919
 10
230.4360788492
 20
48.1048099482
 10
230.7040548158
 20
47.5906466574
 10
230.9295369755
 20
47.0313666561
 10
231.1113497685
 20
46.4298857711
 10
231.2485453073
 20
45.7893398454
 10
231.3404083177
 20
45.1130683886
 10
231.3864598687
 20
44.4045971672
 10
231.3864598687
 20
43.667619822
 10
231.3404083177
 20
42.9059786115
 10
231.2485453073
 20
42.1236443805
 10
231.1113497685
 20
41.3246958574
 10
230.9295369755
 20
40.5132983898
 10
230.7040548158
 20
39.6936822283
 10
230.4360788492
 20
38.8701204723
 10
230.1270061782
 20
38.0469067912
 10
229.7784481646
 20
37.2283330402
 10
229.3922220285
 20
36.4186668836
 10
228.9703413741
 20
35.6221295459
 10
228.5150056919
 20
34.842873804
 10
228.0285888911
 20
34.0849623365
 10
227.5136269239
 20
33.3523465428
 10
226.9728045634
 20
32.6488459425
 10
226.4089414071
 20
31.9781282619
 10
225.8249771762
 20
31.3436903125
 10
225.22395639
 20
30.7488397599
 10
224.6090124925
 20
30.1966778795
 10
223.9833515165
 20
29.6900833878
 10
223.3502353685
 20
29.2316974337
 10
222.7129648231
 20
28.8239098294
 10
222.0748623137
 20
28.4688465907
 10
221.4392546114
 20
28.1683588528
 10
220.8094554804
 20
27.9240132197
 10
220.1887484018
 20
27.7370835965
 10
219.5803694549
 20
27.6085445475
 10
218.9874904459
 20
27.5390662159
 10
218.4132023712
 20
27.5290108295
 10
217.8604993031
 20
27.5784308125
 10
217.3322627794
 20
27.6870685119
 10
216.8312467808
 20
27.8543575411
 10
216.3600633727
 20
28.0794257326
 10
216.303895102
 20
28.1112733923
  0
LWPOLYLINE
  5
E7
330
1F
100
AcDbEntity
  8
0
  6
Continuous
 62
     7
370
    25
100
AcDbPolyline
 90
       76
 70
   128
 43
0.0
 10
184.7231743875
 20
53.019924101
 10
184.7467336561
 20
53.6826251315
 10
184.8172462105
 20
54.3678787429
 10
184.9342174557
 20
55.0708783735
 10
185.0968269226
 20
55.786692986
 10
185.3039340226
 20
56.5103016552
 10
185.5540860482
 20
57.2366287862
 10
185.8455283626
 20
57.960579716
 10
186.1762167074
 20
58.677076449
 10
186.5438315414
 20
59.3810932755
 10
186.9457943109
 20
60.0676920232
 10
187.3792855356
 20
60.7320566953
 10
187.8412645862
 20
61.3695272508
 10
188.3284910116
 20
61.975632292
 10
188.8375472683
 20
62.5461204273
 10
189.3648626927
 20
63.0769900925
 10
189.9067385457
 20
63.5645176183
 10
190.4593739577
 20
64.0052833493
 10
191.0188925883
 20
64.3961956306
 10
191.5813698164
 20
64.7345124935
 10
192.1428602682
 20
65.0178608883
 10
192.6994254918
 20
65.2442533295
 10
193.247161582
 20
65.4121018368
 10
193.7822265635
 20
65.5202290736
 10
194.3008673402
 20
65.567876605
 10
194.7994460194
 20
65.5547102177
 10
195.2744654301
 20
65.4808222646
 10
195.7225936524
 20
65.3467310165
 10
196.1406873887
 20
65.1533770272
 10
196.525814012
 20
64.9021165359
 10
196.8752721356
 20
64.5947119546
 10
197.1866105619
 20
64.2333195055
 10
197.4576454755
 20
63.8204740969
 10
197.6864757613
 20
63.3590715428
 10
197.8714963392
 20
62.8523482505
 10
198.0114094229
 20
62.30385852
 10
198.1052336224
 20
61.7174496124
 10
198.1523108286
 20
61.0972347651
 10
198.1523108286
 20
60.4475643395
 10
198.1052336224
 20
59.7729953069
 10
198.0114094229
 20
59.0782592844
 10
197.8714963392
 20
58.3682293459
 10
197.6864757613
 20
57.6478858414
 10
197.4576454755
 20
56.922281463
 10
197.1866105619
 20
56.196505804
 10
196.8752721356
 20
55.4756496593
 10
196.525814012
 20
54.7647693167
 10
196.1406873887
 20
54.0688510911
 10
195.7225936524
 20
53.3927763488
 10
195.2744654301
 20
52.7412872684
 10
194.7994460194
 20
52.1189535777
 10
194.3008673402
 20
51.5301405003
 10
193.7822265635
 20
50.978978137
 10
193.247161582
 20
50.4693324957
 10
192.6994254918
 20
50.0047783744
 10
192.1428602682
 20
49.5885742865
 10
191.5813698164
 20
49.2236396047
 10
191.0188925883
 20
48.9125340834
 10
190.4593739577
 20
48.6574399045
 10
189.9067385457
 20
48.4601463703
 10
189.3648626927
 20
48.3220373532
 10
188.8375472683
 20
48.2440815887
 10
188.3284910116
 20
48.2268258804
 10
187.8412645862
 20
48.2703912649
 10
187.3792855356
 20
48.3744721621
 10
186.9457943109
 20
48.5383385195
 10
186.5438315414
 20
48.7608409322
 10
186.1762167074
 20
49.0404187056
 10
185.8455283626
 20
49.3751108027
 10
185.5540860482
 20
49.7625695987
 10
185.3039340226
 20
50.2000773487
 10
185.0968269226
 20
50.6845652501
 10
184.9342174557
 20
51.2126349684
 10
184.8172462105
 20
51.7805824739
 10
184.7467336561
 20
52.384424023
 10
184.7231743875
 20
53.019924101
  0
ARC
  5
E8
330
1F
100
AcDbEntity
  8
0
  6
Continuous
 62
     7
370
    25
100
AcDbCircle
 10
228.0586577187
 20
47.6566569857
 30
0.0
 40
5.195748976266567
100
AcDbArc
 50
50.7729023272
 51
68.7008594699
  0
ARC
  5
E9
330
1F
100
AcDbEntity
  8
0
  6
Continuous
 62
     7
370
    25
100
AcDbCircle
 10
217.7554277046
 20
29.8092140948
 30
0.0
 40
5.196115051812529
100
AcDbArc
 50
230.7909145396
 51
248.8882472958
  0
LWPOLYLINE
  5
EA
330
1F
100
AcDbEntity
  8
0
  6
Continuous
 62
     7
370
    25
100
AcDbPolyline
 90
       50
 70
   128
 43
0.0
 10
243.0306794203
 20
45.0129685325
 10
243.0313092424
 20
45.0126048849
 10
243.521590149
 20
44.6911569684
 10
243.9765849077
 20
44.3136045085
 10
244.3943451611
 20
43.8815642428
 10
244.7730819957
 20
43.3968862341
 10
245.1111736021
 20
42.861645948
 10
245.4071722202
 20
42.2781353656
 10
245.6598103384
 20
41.6488531688
 10
245.8680061217
 20
40.9764940405
 10
246.0308680436
 20
40.2639371258
 10
246.1476987044
 20
39.5142337028
 10
246.2179978174
 20
38.7305941166
 10
246.2414643508
 20
37.9163740322
 10
246.2179978174
 20
37.0750600651
 10
246.1476987044
 20
36.2102548508
 10
246.0308680436
 20
35.325661618
 10
245.8680061217
 20
34.4250683307
 10
245.6598103384
 20
33.5123314677
 10
245.4071722202
 20
32.5913595083
 10
245.1111736021
 20
31.6660961958
 10
244.7730819957
 20
30.7405036499
 10
244.3943451611
 20
29.8185453998
 10
243.9765849077
 20
28.9041694124
 10
243.521590149
 20
28.0012911859
 10
243.0313092424
 20
27.1137769837
 10
242.5078416459
 20
26.2454272777
 10
241.9534289283
 20
25.3999604747
 10
241.3704451699
 20
24.5809969933
 10
240.7613867966
 20
23.792043761
 10
240.1288618899
 20
23.0364791965
 10
239.4755790185
 20
22.3175387433
 10
238.8043356401
 20
21.6383010149
 10
238.1180061217
 20
21.0016746115
 10
237.4195294318
 20
20.4103856649
 10
236.7118965548
 20
19.8669661654
 10
235.9981376833
 20
19.3737431186
 10
235.2813092424
 20
18.9328285814
 10
234.5644808014
 20
18.5461106174
 10
233.8507219299
 20
18.2152452124
 10
233.1430890529
 20
17.9416491827
 10
232.444612363
 20
17.7264941088
 10
231.7582828447
 20
17.5707013174
 10
231.0870394662
 20
17.4749379375
 10
230.4337565949
 20
17.4396140423
 10
229.8012316882
 20
17.4648808943
 10
229.1921733149
 20
17.550630297
 10
228.6091895564
 20
17.6964950581
 10
228.0547768388
 20
17.9018505625
 10
227.5319390644
 20
18.1654537987
  0
LINE
  5
EB
330
1F
100
AcDbEntity
  8
0
  6
Continuous
 62
     7
370
    25
100
AcDbLine
 10
223.2604939622
 20
20.6313065691
 30
0.0
 11
223.2604939622
 21
16.6354312368
 31
0.0
  0
LINE
  5
EC
330
1F
100
AcDbEntity
  8
0
  6
Continuous
 62
     7
370
    25
100
AcDbLine
 10
247.3021245225
 20
46.5429910944
 30
0.0
 11
239.1117178889
 21
47.2753368687
 31
0.0
  0
LINE
  5
ED
330
1F
100
AcDbEntity
  8
0
  6
Continuous
 62
     7
370
    25
100
AcDbLine
 10
247.3021245225
 20
30.5143691378
 30
0.0
 11
247.3021245225
 21
46.5429910944
 31
0.0
  0
LINE
  5
EE
330
1F
100
AcDbEntity
  8
0
  6
Continuous
 62
     7
370
    25
100
AcDbLine
 10
235.2813092424
 20
15.560589209
 30
0.0
 11
247.3021245225
 21
30.5143691378
 31
0.0
  0
LINE
  5
EF
330
1F
100
AcDbEntity
  8
0
  6
Continuous
 62
     7
370
    25
100
AcDbLine
 10
223.2604939622
 20
16.6354312368
 30
0.0
 11
235.2813092424
 21
15.560589209
 31
0.0
  0
LINE
  5
F0
330
1F
100
AcDbEntity
  8
0
  6
Continuous
 62
     7
370
    25
100
AcDbLine
 10
235.2813092424
 20
15.560589209
 30
0.0
 11
240.2310567107
 21
12.7031608176
 31
0.0
  0
LINE
  5
F1
330
1F
100
AcDbEntity
  8
0
  6
Continuous
 62
     7
370
    25
100
AcDbLine
 10
247.3021245225
 20
30.5143691378
 30
0.0
 11
252.2518719908
 21
27.6569407464
 31
0.0
  0
LINE
  5
F2
330
1F
100
AcDbEntity
  8
0
  6
Continuous
 62
     7
370
    25
100
AcDbLine
 10
240.2310567107
 20
12.7031608176
 30
0.0
 11
252.2518719908
 21
27.6569407464
 31
0.0
  0
LINE
  5
F3
330
1F
100
AcDbEntity
  8
0
  6
Continuous
 62
     7
370
    25
100
AcDbLine
 10
247.3021245225
 20
46.5429910944
 30
0.0
 11
252.2518719908
 21
43.685562703
 31
0.0
  0
LINE
  5
F4
330
1F
100
AcDbEntity
  8
0
  6
Continuous
 62
     7
370
    25
100
AcDbLine
 10
252.2518719908
 20
27.6569407464
 30
0.0
 11
252.2518719908
 21
43.685562703
 31
0.0
  0
LWPOLYLINE
  5
F5
330
1F
100
AcDbEntity
  8
0
  6
Continuous
 62
     7
370
    25
100
AcDbPolyline
 90
       50
 70
   128
 43
0.0
 10
255.8835913232
 20
37.8818077417
 10
256.1965065562
 20
37.6862044142
 10
256.66803486
 20
37.3281490013
 10
257.1032451326
 20
36.9152037946
 10
257.5003119507
 20
36.4491008298
 10
257.8575698783
 20
35.9317951048
 10
258.1735204513
 20
35.3654563794
 10
258.4468384633
 20
34.7524600752
 10
258.6763775236
 20
34.0953773117
 10
258.8611748655
 20
33.3969641224
 10
259.0004553848
 20
32.6601498948
 10
259.0936348906
 20
31.8880250839
 10
259.1403225556
 20
31.0838282495
 10
259.1403225556
 20
30.2509324726
 10
259.0936348906
 20
29.3928312075
 10
259.0004553848
 20
28.5131236292
 10
258.8611748655
 20
27.615499537
 10
258.6763775236
 20
26.7037238782
 10
258.4468384633
 20
25.7816209568
 10
258.1735204513
 20
24.853058393
 10
257.8575698783
 20
23.9219309008
 10
257.5003119507
 20
22.9921439524
 10
257.1032451326
 20
22.0675973976
 10
256.66803486
 20
21.1521691059
 10
256.1965065562
 20
20.2496987016
 10
255.6906379747
 20
19.3639714592
 10
255.1525509041
 20
18.4987024266
 10
254.5845022686
 20
17.6575208429
 10
253.9888746617
 20
16.8439549159
 10
253.3681663524
 20
16.0614170239
 10
252.7249808072
 20
15.3131894027
 10
252.0620157697
 20
14.6024103791
 10
251.3820519457
 20
13.9320612071
 10
250.6879413399
 20
13.3049535643
 10
249.9825952932
 20
12.723717758
 10
249.2689722721
 20
12.1907916932
 10
248.5500654597
 20
11.7084106471
 10
247.8288902008
 20
11.2785978932
 10
247.1084713552
 20
10.9031562158
 10
246.3918306098
 20
10.5836603477
 10
245.6819738051
 20
10.3214503656
 10
244.981878327
 20
10.1176260692
 10
244.2944806195
 20
9.9730423686
 10
243.6226638673
 20
9.8883056979
 10
242.9692459033
 20
9.8637714723
 10
242.3369673896
 20
9.8995425968
 10
241.7284803221
 20
9.9954690349
 10
241.1463369068
 20
10.1511484378
 10
240.5929788557
 20
10.3659278319
 10
240.1348712842
 20
10.6012685767
  0
LINE
  5
F6
330
1F
100
AcDbEntity
  8
0
  6
Continuous
 62
     7
370
    25
100
AcDbLine
 10
223.2604939622
 20
16.6354312368
 30
0.0
 11
228.2102414305
 21
13.7780028454
 31
0.0
  0
LINE
  5
F7
330
1F
100
AcDbEntity
  8
0
  6
Continuous
 62
     7
370
    25
100
AcDbLine
 10
228.2102414305
 20
13.7780028454
 30
0.0
 11
240.2310567107
 21
12.7031608176
 31
0.0
  0
LWPOLYLINE
  5
F8
330
1F
100
AcDbEntity
  8
0
  6
Continuous
 62
     1
370
    25
100
AcDbPolyline
 90
       67
 70
   128
 43
0.0
 10
224.6567613827
 20
52.1559978552
 10
224.8157714109
 20
52.2091750881
 10
225.4956893496
 20
52.4028578602
 10
226.1627413496
 20
52.5376573557
 10
226.8140105622
 20
52.6129841305
 10
227.4466491528
 20
52.6285088
 10
228.0578907538
 20
52.5841634786
 10
228.6450625612
 20
52.4801420772
 10
229.2055970222
 20
52.3168994549
 10
229.7370430621
 20
52.0951494302
 10
230.2370768026
 20
51.8158616594
 10
230.7035117234
 20
51.4802573969
 10
231.1343082233
 20
51.0898041549
 10
231.5275825388
 20
50.6462092859
 10
231.8816149813
 20
50.1514125175
 10
232.1948574572
 20
49.6075774701
 10
232.4659402366
 20
49.0170821959
 10
232.6936779437
 20
48.3825087805
 10
232.8770747394
 20
47.706632052
 10
233.0153286761
 20
46.9924074474
 10
233.1078352045
 20
46.2429580891
 10
233.1541898172
 20
45.4615611285
 10
233.1541898172
 20
44.6516334157
 10
233.1078352045
 20
43.8167165585
 10
233.0153286761
 20
42.960461436
 10
232.8770747394
 20
42.0866122337
 10
232.6936779437
 20
41.1989900721
 10
232.4659402366
 20
40.301476297
 10
232.1948574572
 20
39.3979955076
 10
231.8816149813
 20
38.4924983958
 10
231.5275825388
 20
37.5889444698
 10
231.1343082233
 20
36.6912847413
 10
230.7035117234
 20
35.8034444476
 10
230.2370768026
 20
34.9293058886
 10
229.7370430621
 20
34.0726914498
 10
229.2055970222
 20
33.2373468881
 10
228.6450625612
 20
32.4269249528
 10
228.0578907538
 20
31.6449694128
 10
227.4466491528
 20
30.8948995606
 10
226.8140105622
 20
30.179995261
 10
226.1627413496
 20
29.5033826085
 10
225.4956893496
 20
28.8680202582
 10
224.8157714109
 20
28.2766864878
 10
224.1259606415
 20
27.7319670495
 10
223.4292734086
 20
27.2362438629
 10
222.728756148
 20
26.7916845992
 10
222.0274720435
 20
26.4002332031
 10
221.3284876322
 20
26.0636013919
 10
220.6348593949
 20
25.7832611708
 10
219.9496203914
 20
25.5604383964
 10
219.2757669976
 20
25.3961074158
 10
218.616245803
 20
25.2909868067
 10
217.9739407258
 20
25.2455362348
 10
217.3516604028
 20
25.2599544438
 10
216.7521259075
 20
25.3341783866
 10
216.1779588517
 20
25.4678835007
 10
215.6316699218
 20
25.6604851278
 10
215.1156479004
 20
25.9111410698
 10
214.6321492203
 20
26.2187552722
 10
214.1832880985
 20
26.5819826164
 10
213.7710272902
 20
26.9992348014
 10
213.3971695072
 20
27.4686872898
 10
213.0633495344
 20
27.9882872852
 10
212.7710270816
 20
28.5557627091
 10
212.5214804005
 20
29.1686321358
 10
212.3158006952
 20
29.8242156432
 10
212.1577772248
 20
30.5047762957
  0
LWPOLYLINE
  5
F9
330
1F
100
AcDbEntity
  8
0
  6
Continuous
 62
     1
370
    25
100
AcDbPolyline
 90
       47
 70
   128
 43
0.0
 10
231.3444272219
 20
51.6815204861
 10
231.602216237
 20
51.4571754869
 10
232.0199764904
 20
51.0251352212
 10
232.3987133249
 20
50.5404572125
 10
232.7368049313
 20
50.0052169265
 10
233.0328035494
 20
49.4217063441
 10
233.2854416677
 20
48.7924241472
 10
233.4936374509
 20
48.120065019
 10
233.6564993729
 20
47.4075081043
 10
233.7733300337
 20
46.6578046812
 10
233.8436291466
 20
45.874165095
 10
233.86709568
 20
45.0599450107
 10
233.8436291466
 20
44.2186310436
 10
233.7733300337
 20
43.3538258292
 10
233.6564993729
 20
42.4692325964
 10
233.4936374509
 20
41.5686393092
 10
233.2854416677
 20
40.6559024461
 10
233.0328035494
 20
39.7349304867
 10
232.7368049313
 20
38.8096671743
 10
232.3987133249
 20
37.8840746283
 10
232.0199764904
 20
36.9621163782
 10
231.602216237
 20
36.0477403908
 10
231.1472214782
 20
35.1448621644
 10
230.6569405716
 20
34.2573479621
 10
230.1334729752
 20
33.3889982561
 10
229.5790602575
 20
32.5435314531
 10
228.9960764991
 20
31.7245679718
 10
228.3870181258
 20
30.9356147394
 10
227.7544932191
 20
30.1800501749
 10
227.1012103477
 20
29.4611097218
 10
226.4299669693
 20
28.7818719934
 10
225.7436374509
 20
28.1452455899
 10
225.0451607611
 20
27.5539566434
 10
224.337527884
 20
27.0105371439
 10
223.6237690125
 20
26.5173140971
 10
222.9069405716
 20
26.0763995598
 10
222.1901121307
 20
25.6896815958
 10
221.4763532592
 20
25.3588161908
 10
220.7687203822
 20
25.0852201612
 10
220.0702436923
 20
24.8700650872
 10
219.3839141739
 20
24.7142722959
 10
218.7126707955
 20
24.6185089159
 10
218.0593879241
 20
24.5831850208
 10
217.4268630174
 20
24.6084518728
 10
216.8178046441
 20
24.6942012754
 10
216.2348208857
 20
24.8400660366
 10
215.8838485271
 20
24.9618639925
  0
LINE
  5
FA
330
1F
100
AcDbEntity
  8
0
  6
Continuous
 62
     7
370
    25
100
AcDbLine
 10
124.0823425481
 20
81.7001834615
 30
0.0
 11
124.0823425481
 21
70.7001834615
 31
0.0
  0
LINE
  5
FB
330
1F
100
AcDbEntity
  8
0
  6
Continuous
 62
     7
370
    25
100
AcDbLine
 10
155.5823425481
 20
70.7001834615
 30
0.0
 11
155.5823425481
 21
81.7001834615
 31
0.0
  0
LINE
  5
FC
330
1F
100
AcDbEntity
  8
0
  6
Continuous
 62
     7
370
    25
100
AcDbLine
 10
124.3323425481
 20
63.7001834615
 30
0.0
 11
124.3323425481
 21
46.2001834615
 31
0.0
  0
LINE
  5
FD
330
1F
100
AcDbEntity
  8
0
  6
Continuous
 62
     7
370
    25
100
AcDbLine
 10
155.3323425481
 20
46.2001834615
 30
0.0
 11
155.3323425481
 21
63.7001834615
 31
0.0
  0
ARC
  5
FE
330
1F
100
AcDbEntity
  8
0
  6
Continuous
 62
     7
370
    25
100
AcDbCircle
 10
124.8323425481
 20
46.2001834615
 30
0.0
 40
0.5000000000000142
100
AcDbArc
 50
180.0
 51
270.0
  0
ARC
  5
FF
330
1F
100
AcDbEntity
  8
0
  6
Continuous
 62
     7
370
    25
100
AcDbCircle
 10
154.8323425481
 20
46.2001834615
 30
0.0
 40
0.5
100
AcDbArc
 50
270.0
 51
0.0
  0
LINE
  5
100
330
1F
100
AcDbEntity
  8
0
  6
Continuous
 62
     7
370
    25
100
AcDbLine
 10
127.3323425481
 20
45.7001834615
 30
0.0
 11
127.3323425481
 21
1.7001834615
 31
0.0
  0
LINE
  5
101
330
1F
100
AcDbEntity
  8
0
  6
Continuous
 62
     7
370
    25
100
AcDbLine
 10
152.3323425481
 20
1.7001834615
 30
0.0
 11
152.3323425481
 21
45.7001834615
 31
0.0
  0
LINE
  5
102
330
1F
100
AcDbEntity
  8
0
  6
Continuous
 62
     7
370
    25
100
AcDbLine
 10
139.8323425481
 20
63.7001834615
 30
0.0
 11
139.8323425481
 21
70.7001834615
 31
0.0
  0
LINE
  5
103
330
1F
100
AcDbEntity
  8
0
  6
Continuous
 62
     7
370
    25
100
AcDbLine
 10
139.8323425481
 20
63.7001834615
 30
0.0
 11
122.8323425481
 21
63.7001834615
 31
0.0
  0
LINE
  5
104
330
1F
100
AcDbEntity
  8
0
  6
Continuous
 62
     7
370
    25
100
AcDbLine
 10
122.8323425481
 20
63.7001834615
 30
0.0
 11
122.8323425481
 21
70.7001834615
 31
0.0
  0
LINE
  5
105
330
1F
100
AcDbEntity
  8
0
  6
Continuous
 62
     7
370
    25
100
AcDbLine
 10
139.8323425481
 20
70.7001834615
 30
0.0
 11
122.8323425481
 21
70.7001834615
 31
0.0
  0
LINE
  5
106
330
1F
100
AcDbEntity
  8
0
  6
Continuous
 62
     7
370
    25
100
AcDbLine
 10
156.8323425481
 20
63.7001834615
 30
0.0
 11
156.8323425481
 21
70.7001834615
 31
0.0
  0
LINE
  5
107
330
1F
100
AcDbEntity
  8
0
  6
Continuous
 62
     7
370
    25
100
AcDbLine
 10
156.8323425481
 20
63.7001834615
 30
0.0
 11
139.8323425481
 21
63.7001834615
 31
0.0
  0
LINE
  5
108
330
1F
100
AcDbEntity
  8
0
  6
Continuous
 62
     7
370
    25
100
AcDbLine
 10
156.8323425481
 20
70.7001834615
 30
0.0
 11
139.8323425481
 21
70.7001834615
 31
0.0
  0
LINE
  5
109
330
1F
100
AcDbEntity
  8
0
  6
Continuous
 62
     7
370
    25
100
AcDbLine
 10
124.0823425481
 20
81.7001834615
 30
0.0
 11
155.5823425481
 21
81.7001834615
 31
0.0
  0
LINE
  5
10A
330
1F
100
AcDbEntity
  8
0
  6
Continuous
 62
     7
370
    25
100
AcDbLine
 10
124.8323425481
 20
45.7001834615
 30
0.0
 11
154.8323425458
 21
45.7001834615
 31
0.0
  0
LINE
  5
10B
330
1F
100
AcDbEntity
  8
0
  6
Continuous
 62
     7
370
    25
100
AcDbLine
 10
127.3323425481
 20
1.7001834615
 30
0.0
 11
152.3323425481
 21
1.7001834615
 31
0.0
  0
LINE
  5
10C
330
1F
100
AcDbEntity
  8
0
  6
Continuous
 62
     1
370
    25
100
AcDbLine
 10
124.3323425481
 20
46.2001834615
 30
0.0
 11
155.3323425481
 21
46.2001834615
 31
0.0
  0
ENDSEC
  0
SECTION
  2
OBJECTS
  0
DICTIONARY
  5
C
330
0
100
AcDbDictionary
281
     1
  3
ACAD_GROUP
350
D
  3
ACAD_LAYOUT
350
1A
  3
ACAD_MLINESTYLE
350
17
  3
ACAD_PLOTSETTINGS
350
19
  3
ACAD_PLOTSTYLENAME
350
E
  3
ACAD_SCALELIST
350
47
  3
DWGPROPS
350
10D
  0
DICTIONARY
  5
D
102
{ACAD_REACTORS
330
C
102
}
330
C
100
AcDbDictionary
281
     1
  0
DICTIONARY
  5
1A
102
{ACAD_REACTORS
330
C
102
}
330
C
100
AcDbDictionary
281
     1
  3
Layout1
350
1E
  3
Layout2
350
26
  3
Model
350
22
  0
DICTIONARY
  5
17
102
{ACAD_REACTORS
330
C
102
}
330
C
100
AcDbDictionary
281
     1
  3
Standard
350
18
  0
DICTIONARY
  5
19
102
{ACAD_REACTORS
330
C
102
}
330
C
100
AcDbDictionary
281
     1
  0
ACDBDICTIONARYWDFLT
  5
E
102
{ACAD_REACTORS
330
C
102
}
330
C
100
AcDbDictionary
281
     1
  3
Normal
350
F
100
AcDbDictionaryWithDefault
340
F
  0
DICTIONARY
  5
47
102
{ACAD_REACTORS
330
C
102
}
330
C
100
AcDbDictionary
281
     1
  3
A0
350
48
  3
A1
350
49
  3
A2
350
4A
  3
A3
350
4B
  3
A4
350
4C
  3
A5
350
4D
  3
A6
350
4E
  3
A7
350
4F
  3
A8
350
50
  3
A9
350
51
  3
B0
350
52
  3
B1
350
53
  3
B2
350
54
  3
B3
350
55
  3
B4
350
56
  3
B5
350
57
  3
B6
350
58
  3
B7
350
59
  3
B8
350
5A
  3
B9
350
5B
  3
C0
350
5C
  3
C1
350
5D
  3
C2
350
5E
  3
C3
350
5F
  3
C4
350
60
  3
C5
350
61
  3
C6
350
62
  3
C7
350
63
  3
C8
350
64
  3
C9
350
65
  3
D0
350
66
  3
D1
350
67
  3
D2
350
68
  0
XRECORD
  5
10D
102
{ACAD_REACTORS
330
C
102
}
330
C
100
AcDbXrecord
280
     1
  1
DWGPROPS COOKIE
  2

  3

  4

  6

  7

  8
b.kav
  9

300
=
301
=
302
=
303
=
304
=
305
=
306
=
307
=
308
=
309
=
 40
0.0
 41
2459935.584472998
 42
2459935.584473195
  1

 90
        0
  0
LAYOUT
  5
1E
102
{ACAD_REACTORS
330
1A
102
}
330
1A
100
AcDbPlotSettings
  1

  2
none_device
  4

  6

 40
0.0
 41
0.0
 42
0.0
 43
0.0
 44
0.0
 45
0.0
 46
0.0
 47
0.0
 48
0.0
 49
0.0
140
0.0
141
0.0
142
1.0
143
1.0
 70
   688
 72
     1
 73
     0
 74
     5
  7

 75
    16
147
1.0
148
0.0
149
0.0
100
AcDbLayout
  1
Layout1
 70
     1
 71
     1
 10
0.0
 20
0.0
 11
420.0
 21
297.0
 12
0.0
 22
0.0
 32
0.0
 14
1.0000000000E+20
 24
1.0000000000E+20
 34
1.0000000000E+20
 15
-1.0000000000E+20
 25
-1.0000000000E+20
 35
-1.0000000000E+20
146
0.0
 13
0.0
 23
0.0
 33
0.0
 16
1.0
 26
0.0
 36
0.0
 17
0.0
 27
1.0
 37
0.0
 76
     0
330
1B
  0
LAYOUT
  5
26
102
{ACAD_REACTORS
330
1A
102
}
330
1A
100
AcDbPlotSettings
  1

  2
none_device
  4

  6

 40
0.0
 41
0.0
 42
0.0
 43
0.0
 44
0.0
 45
0.0
 46
0.0
 47
0.0
 48
0.0
 49
0.0
140
0.0
141
0.0
142
1.0
143
1.0
 70
   688
 72
     1
 73
     0
 74
     5
  7

 75
    16
147
1.0
148
0.0
149
0.0
100
AcDbLayout
  1
Layout2
 70
     1
 71
     2
 10
0.0
 20
0.0
 11
0.0
 21
0.0
 12
0.0
 22
0.0
 32
0.0
 14
0.0
 24
0.0
 34
0.0
 15
0.0
 25
0.0
 35
0.0
146
0.0
 13
0.0
 23
0.0
 33
0.0
 16
1.0
 26
0.0
 36
0.0
 17
0.0
 27
1.0
 37
0.0
 76
     0
330
23
  0
LAYOUT
  5
22
102
{ACAD_REACTORS
330
1A
102
}
330
1A
100
AcDbPlotSettings
  1

  2
none_device
  4
Letter_(8.50_x_11.00_Inches)
  6

 40
6.35
 41
6.35
 42
6.35000508
 43
6.35000508
 44
215.9
 45
279.4
 46
0.0
 47
0.0
 48
0.0
 49
0.0
140
0.0
141
0.0
142
1.0
143
1.0
 70
  1712
 72
     1
 73
     0
 74
     0
  7

 75
     0
147
1.0
148
0.0
149
0.0
100
AcDbLayout
  1
Model
 70
     1
 71
     0
 10
0.0
 20
0.0
 11
279.4
 21
215.9
 12
0.0
 22
0.0
 32
0.0
 14
0.0
 24
0.0
 34
0.0
 15
279.4
 25
215.9
 35
0.0
146
0.0
 13
0.0
 23
0.0
 33
0.0
 16
1.0
 26
0.0
 36
0.0
 17
0.0
 27
1.0
 37
0.0
 76
     0
330
1F
331
29
  0
MLINESTYLE
  5
18
102
{ACAD_REACTORS
330
17
102
}
330
17
100
AcDbMlineStyle
  2
Standard
 70
     0
  3

 62
   256
 51
90.0
 52
90.0
 71
     2
 49
0.5
 62
   256
  6
BYLAYER
 49
-0.5
 62
   256
  6
BYLAYER
  0
ACDBPLACEHOLDER
  5
F
102
{ACAD_REACTORS
330
E
102
}
330
E
  0
SCALE
  5
48
102
{ACAD_REACTORS
330
47
102
}
330
47
100
AcDbScale
 70
     0
300
1:1
140
1.0
141
1.0
290
     1
  0
SCALE
  5
49
102
{ACAD_REACTORS
330
47
102
}
330
47
100
AcDbScale
 70
     0
300
1:2
140
1.0
141
2.0
290
     0
  0
SCALE
  5
4A
102
{ACAD_REACTORS
330
47
102
}
330
47
100
AcDbScale
 70
     0
300
1:4
140
1.0
141
4.0
290
     0
  0
SCALE
  5
4B
102
{ACAD_REACTORS
330
47
102
}
330
47
100
AcDbScale
 70
     0
300
1:5
140
1.0
141
5.0
290
     0
  0
SCALE
  5
4C
102
{ACAD_REACTORS
330
47
102
}
330
47
100
AcDbScale
 70
     0
300
1:8
140
1.0
141
8.0
290
     0
  0
SCALE
  5
4D
102
{ACAD_REACTORS
330
47
102
}
330
47
100
AcDbScale
 70
     0
300
1:10
140
1.0
141
10.0
290
     0
  0
SCALE
  5
4E
102
{ACAD_REACTORS
330
47
102
}
330
47
100
AcDbScale
 70
     0
300
1:16
140
1.0
141
16.0
290
     0
  0
SCALE
  5
4F
102
{ACAD_REACTORS
330
47
102
}
330
47
100
AcDbScale
 70
     0
300
1:20
140
1.0
141
20.0
290
     0
  0
SCALE
  5
50
102
{ACAD_REACTORS
330
47
102
}
330
47
100
AcDbScale
 70
     0
300
1:30
140
1.0
141
30.0
290
     0
  0
SCALE
  5
51
102
{ACAD_REACTORS
330
47
102
}
330
47
100
AcDbScale
 70
     0
300
1:40
140
1.0
141
40.0
290
     0
  0
SCALE
  5
52
102
{ACAD_REACTORS
330
47
102
}
330
47
100
AcDbScale
 70
     0
300
1:50
140
1.0
141
50.0
290
     0
  0
SCALE
  5
53
102
{ACAD_REACTORS
330
47
102
}
330
47
100
AcDbScale
 70
     0
300
1:100
140
1.0
141
100.0
290
     0
  0
SCALE
  5
54
102
{ACAD_REACTORS
330
47
102
}
330
47
100
AcDbScale
 70
     0
300
2:1
140
2.0
141
1.0
290
     0
  0
SCALE
  5
55
102
{ACAD_REACTORS
330
47
102
}
330
47
100
AcDbScale
 70
     0
300
4:1
140
4.0
141
1.0
290
     0
  0
SCALE
  5
56
102
{ACAD_REACTORS
330
47
102
}
330
47
100
AcDbScale
 70
     0
300
8:1
140
8.0
141
1.0
290
     0
  0
SCALE
  5
57
102
{ACAD_REACTORS
330
47
102
}
330
47
100
AcDbScale
 70
     0
300
10:1
140
10.0
141
1.0
290
     0
  0
SCALE
  5
58
102
{ACAD_REACTORS
330
47
102
}
330
47
100
AcDbScale
 70
     0
300
100:1
140
100.0
141
1.0
290
     0
  0
SCALE
  5
59
102
{ACAD_REACTORS
330
47
102
}
330
47
100
AcDbScale
 70
     0
300
1/128" = 1'-0"
140
0.0078125
141
12.0
290
     0
  0
SCALE
  5
5A
102
{ACAD_REACTORS
330
47
102
}
330
47
100
AcDbScale
 70
     0
300
1/64" = 1'-0"
140
0.015625
141
12.0
290
     0
  0
SCALE
  5
5B
102
{ACAD_REACTORS
330
47
102
}
330
47
100
AcDbScale
 70
     0
300
1/32" = 1'-0"
140
0.03125
141
12.0
290
     0
  0
SCALE
  5
5C
102
{ACAD_REACTORS
330
47
102
}
330
47
100
AcDbScale
 70
     0
300
1/16" = 1'-0"
140
0.0625
141
12.0
290
     0
  0
SCALE
  5
5D
102
{ACAD_REACTORS
330
47
102
}
330
47
100
AcDbScale
 70
     0
300
3/32" = 1'-0"
140
0.09375
141
12.0
290
     0
  0
SCALE
  5
5E
102
{ACAD_REACTORS
330
47
102
}
330
47
100
AcDbScale
 70
     0
300
1/8" = 1'-0"
140
0.125
141
12.0
290
     0
  0
SCALE
  5
5F
102
{ACAD_REACTORS
330
47
102
}
330
47
100
AcDbScale
 70
     0
300
3/16" = 1'-0"
140
0.1875
141
12.0
290
     0
  0
SCALE
  5
60
102
{ACAD_REACTORS
330
47
102
}
330
47
100
AcDbScale
 70
     0
300
1/4" = 1'-0"
140
0.25
141
12.0
290
     0
  0
SCALE
  5
61
102
{ACAD_REACTORS
330
47
102
}
330
47
100
AcDbScale
 70
     0
300
3/8" = 1'-0"
140
0.375
141
12.0
290
     0
  0
SCALE
  5
62
102
{ACAD_REACTORS
330
47
102
}
330
47
100
AcDbScale
 70
     0
300
1/2" = 1'-0"
140
0.5
141
12.0
290
     0
  0
SCALE
  5
63
102
{ACAD_REACTORS
330
47
102
}
330
47
100
AcDbScale
 70
     0
300
3/4" = 1'-0"
140
0.75
141
12.0
290
     0
  0
SCALE
  5
64
102
{ACAD_REACTORS
330
47
102
}
330
47
100
AcDbScale
 70
     0
300
1" = 1'-0"
140
1.0
141
12.0
290
     0
  0
SCALE
  5
65
102
{ACAD_REACTORS
330
47
102
}
330
47
100
AcDbScale
 70
     0
300
1-1/2" = 1'-0"
140
1.5
141
12.0
290
     0
  0
SCALE
  5
66
102
{ACAD_REACTORS
330
47
102
}
330
47
100
AcDbScale
 70
     0
300
3" = 1'-0"
140
3.0
141
12.0
290
     0
  0
SCALE
  5
67
102
{ACAD_REACTORS
330
47
102
}
330
47
100
AcDbScale
 70
     0
300
6" = 1'-0"
140
6.0
141
12.0
290
     0
  0
SCALE
  5
68
102
{ACAD_REACTORS
330
47
102
}
330
47
100
AcDbScale
 70
     0
300
1'-0" = 1'-0"
140
12.0
141
12.0
290
     0
  0
ENDSEC
  0
EOF
